Воскресенье, 22.07.2018, 23:32
Приветствую Вас Гость | RSS

п
Защитники Трои!



  • Информация о сайте

  • Онлайн всего: 1
    Гостей: 1
    Пользователей: 0


    Ветер
    Em C Am D
    1|-0-----------0---------2-3-2-0---|
    2|-0-----------1---------3---------|
    3|-0-----------2--2-2-0--2--------- Вступление(4раза)
    4|-2--2-0-0-2--2-------------------/ Между куплетами (2 раза)
    5|-2-----3-----0-------------------| В конце (сколько душе угодно)
    6|-------------0-------------------|

    Em C Am D Em C Am D
    1|----------------------------------------------------------------------2--3--2--0-
    2|-0-----0---1-----1---1-----1---3-----3---0-----0---1-----1---1----1---3----------
    3|-----0---------0---------2---------2---------0---------0---------2---------------
    4|---2---------2---------2---------0---------2---------2---------2-----------------
    5|---------------------------------------------------------------------------------
    6|---------------------------------------------------------------------------------

    О-пре-крас-ная даль погло-тив-ша-я небо
    Облака как к любимой прижались к земле
    Где ты и я под простой да не скошенной крышей
    Ищем друг в друге тепло
    (с аккорда "С" переходим на бой)
    Что, что
    Припев:
    . D G D Em C
    Что нам Ветер да на это ответит,
    G D Em C D
    Несущийся мимо, да сломавший крыло.
    G D Em C
    И, упав между нами, так недолго любимых,
    G D(стоп) D(проводим по струнам)
    Разбил он объятья как простое стекло.
    (с буквы "о" слова "стекло" начинаем проигрыш(см.начало))

    Мы стояли на прошлом, мы ждали начала,
    Прижимаясь к стене, где исчезли они.
    Где еще одну жизнь одна смерть обвенчала
    Парой вспышек огня да в эти смутные дни.
    Что, что
    Припев.

    Русская колыбельная!





    Неофициальный Российский сайт фанатов легендарной группы ДДТ - DDT 2010 © 2018 |