Среда, 24.01.2018, 02:16
Приветствую Вас Гость | RSS

п
Защитники Трои!



  • Информация о сайте

  • Онлайн всего: 1
    Гостей: 1
    Пользователей: 0


    Метель
    (Коронована луной)
    Em C G D
    Коронована луной
    Как начало высока
    Как победа не со мной
    Как надежда нелегка
    За окном стеной мете-е-е-ель
    Жизнь по горло занесло
    Сорвало финал с петель
    Да поела все тепло

    Припев:
    Играй как можешь, сыграй
    Закрой глаза и вернись
    Не пропади, но достань,
    Да калие поклонись
    Мое окно отогрей
    Пусти по полю весной
    Не доживи, но созрей
    Ты будешь вечно со мной
    Ты будешь вечно со мной
    Ты будешь вечно со мной е-и е-и е-а..!
    ...со мной..!
    Тычат в землю фонари
    К небу тянется свеча
    На снегу цветы зари
    Крылья павшего луча
    Что же вьюга наливай
    Выпьем время натощак
    Я спою ты в такт пролай
    О затерянных вещах
    Припев.
    Осторожно, не спеша
    С белым ветром на круги
    Где у вмерзших в лед ладей
    Ждет озябшая душа
    intro:
    1|--------0----------------------------------------------2^3---|
    2|----0---------------3---------------0----------------3---3---|
    3|--0---0---0---0---0---0---0---0---0---0------------2-------2-|
    4|------------------------5---4-------------------0------------|
    5|------------2---3-------------------------0-2-3--------------|
    6|0-------------------------------3-------3--------------------|
    1|---------0-------------------------------0-------------2^3---|
    2|-----0---------------3---------------0-------0-------3-------|
    3|---0---0---0---0---0---0---0-------0---0---0---0---2---------|
    4|-------------------------5---4==>9---------------0-----------|
    5|-------------2---3-------------------------------------------|
    6|-0-----------------------------------------------------------|

    В куплете:
    1|---------0---------------3-----------------------------2^3---|
    2|-----0-----------------3---3---3-------3-------0-----3---3---|
    3|---0---0---0---0-----0-------0-------0-------0-----2-------2-|
    4|-------------------------------------------------0-----------|
    5|-------------2---3-----------------------0/2-----------------|
    6|-0-------------------------------3---------------------------|

    Русская колыбельная!





    Неофициальный Российский сайт фанатов легендарной группы ДДТ - DDT 2010 © 2018 |