Воскресенье, 19.11.2017, 21:02
Приветствую Вас Гость | RSS
Главная | Регистрация | Вход
Защитники Трои!

  • Российский сайт DDT
  • Московский ресурс о DDT
  • Анализ сайта
    Онлайн всего: 1
    Гостей: 1
    Пользователей: 0
    Логин:
    Пароль:

    Я еду к тебе
    Вступление и 1-й куплет:
    E|-------0-----------------------------------------------------|
    B|---------1----------3----------1-----------0^1^0-------------|
    G|-----2-----2------2---2------2---2-------0-------0-----------|
    D|----------------3----------3---------------------------------|
    A|---0---------------------------------------------------------|
    E|---------------------------------------3---------------------|
    E|-------0----------------------------------------------0------|
    B|---------1----------3----------1-----------0-1^0------3------|
    G|-----2-----2------2---2------2---2-------0-------0----4------|
    D|----------------3----------3--------------------------5------|
    A|---0---------------------------------------------------------|
    E|---------------------------------------3---------------------|
    Я еду к тебе
    Это странное место
    Туман на болоте
    Без цвета и дна
    Я твой вечных жених,
    Золотая невеста
    Лижут мысли, как мухи,
    Стекла окна
    Зима на спине
    Я не стар и не молод
    Ночь похожа на лифт
    В котором умер поэт
    Я по уши сыт,
    Да разбудил меня голод
    Руки чувствуют пульс
    Я зеваю на свет
    Припев:
    E|-------0-----------------------0----------------0------------|
    B|---------1----------3------------1------------0---0----------|
    G|-----2-----2------2---2------0-----0-------1^2------1--------|
    D|-------------------------------------------------------------|
    A|--0----------------------------------------------------------|
    E|----------------2----------3-------------0-------------------|
    Мама, разбуди меня вечером
    Мама, чтоб я ночь не проспал
    Мама, я уйду как намечено
    Мама, мама как я устал
    Соло:
    E|------0---------0---------------0----|------0---------7-0----|
    B|----0---6---------6-----------3---3--|----0---6-----------6--|
    G|--5-------5---5-----5-----4^5-------4|--5-------5---5-------5|
    D|7-----------7---------7-5------------|7-----------7----------|
    A|-------------------------------------|-----------------------|
    E|-------------------------------------|-----------------------|
    -----5----|------0---------0---------------0----|------0--------
    ---3---3--|----0---6---------6-----------3---3--|----0---6------
    -4-------4|--5-------5---5-----5-----4^5-------4|--5-------5---5
    5---------|7-----------7---------7-5------------|7-----------7--
    ----------|-------------------------------------|---------------
    ----------|-------------------------------------|---------------
    --0----------0---|
    ----6--------3---| - в общем-то похоже
    ------5------4---|
    --------7----5---|
    -----------------|
    -----------------|
    2-й куплет играется в две гитары: одна продолжает соло,
    другая - как 1-й куплет или вроде этого
    Гроза по глазам
    Напротив морщинами
    Скребет по стеклу
    Седая рука
    Мимо павших идей
    Проплывают причинами
    В тумане чуть видимо
    Ветви века.
    Растет за окном
    Последняя станция
    Здесь отпевают верхний этаж
    Здравствуй, любовь,
    Получи информацию
    Да не промахнись
    И сотри макияж
    Припев.
    Дальше боем: Am,D*(200230),C,E
    Свобода (~4 раза)
    Русская колыбельная!

    Неофициальный Российский сайт фанатов легендарной группы ДДТ - DDT 2010 © 2017 |