Пятница, 22.09.2017, 23:35
Приветствую Вас Гость | RSS
Главная | Регистрация | Вход
Защитники Трои!

  • Российский сайт DDT
  • Московский ресурс о DDT
  • Анализ сайта
    Онлайн всего: 1
    Гостей: 1
    Пользователей: 0
    Логин:
    Пароль:

    Далеко-далеко 2
    (2 вариант)
    Am F7+ D9
    E|----0---|----0---|------0-|--------|
    B|-------1|-1-----1|----3-3-|--------|
    G|--2---2-|--------|--2---2-|--------| x4 раза
    D|--------|3-3---3-|4-----4-|--------|
    A|0-------|--------|--------|--------|
    E|--------|--------|--------|--------|
    Am F7+ D9
    Далеко, далеко,
    Am F7+ D9 G G4 G
    В беззаботные дни,
    Am F7+ D9
    Я смотрю, как легко
    Am F7+ D9 G G4 G
    Исчезают они.
    Em D9 G G4 G
    Слышу я тишину,
    Что молчит в тишине,
    Вижу мир да войну,
    Em D9 F7+
    Грею ночь на огне.
    Am D9 D4 D9 G C Em
    Пр.: Я - дорога!
    Дорога!
    Да-да-дорога!
    Дорога!
    Далеко, далеко,
    Где ни зла, ни беды,
    Ты дала мне воды,
    Я нырнул глубоко.
    Женовала луна,
    Целовавшая день,
    Ты вдали так видна,
    Рядом ветер да тень.
    Пр.
    Em D9 G G4 G
    Шли вдвоем по реке,
    Собирая лады.
    Но его лишь следы
    Em D9 F7+
    Вижу я на песке.
    Пр.
    Я - дорога!
    Дорога!
    Да-да-дорога!
    Дорога!
    Далеко, далеко...
    Am F7+ D9 G G4 G
    E|----0---|----0---|------0-|3-3-----|
    B|-------1|-1-----1|----3---|0-0-1-0-|
    G|--2---2-|--------|--2-----|0-0-----| для второй и четвертой
    D|--------|3-3---3-|4-------|0-0-----| строчек куплета
    A|0-------|--------|--------|2-2-----|
    E|--------|--------|--------|3-3-----|
    F7+
    E|-0------|
    B|-1------| для окончания куплета
    G|-2------|
    D|-3------|
    A|-0------|
    E|-0------|
    Am D9 D4 D9 G C Em
    E|0-------|0---3---|0---3---|0---0---|
    B|1-------|3---3---|3---0---|1---0---| для припева
    G|2-------|2---2---|2---0---|0---0---|
    D|2-------|0---0---|0---0---|2---2---|
    A|0-------|0---0---|0---2---|3---2---|
    E|0-------|--------|----3---|0---0---|

    intro (12-струн.)
    E|-------^-|
    B|-----^---|
    G|---^-----|
    D|---------|
    A|-^-------|
    E|---------|
    Русская колыбельная!
    «  Сентябрь 2017  »
    ПнВтСрЧтПтСбВс
        123
    45678910
    11121314151617
    18192021222324
    252627282930

    Неофициальный Российский сайт фанатов легендарной группы ДДТ - DDT 2010 © 2017 |